スポンサーサイト

--/--/-- (--)  --:--
上記の広告は1ヶ月以上更新のないブログに表示されています。
新しい記事を書く事で広告が消せます。

顔よりデカいティアドロップのサングラスは涙だけじゃなく治す気もない不眠症も隠してんだろ

2008/12/17 (水)  02:50
GiGSの今月号に9mmの『Vampiregirl』の譜面が載ってたので、現在ギター練習中。
9mmの曲は弾いてて楽しい曲が多いから練習しがいがあるぜ。
この曲は『VAMPIRE』の中でもかなり簡単な部類に入るんじゃないかと思う。
難しい曲はとことん難しいんですけどね。

コピーしてて気になった点が一つ。
GiGSに載ってる譜面だと、リフの部分が、

1 |---------------|-----------------------------|
2 |-15--15-14--14-|-----14-15--14------------14-|
3 |---------------|-16------------16--15--16----|
4 |---------------|-----------------------------|

---------------|-------------------------14-----|
-15--15-14--14-|-----14-15--14--------------17--|
---------------|-16------------16--15-----------|
---------------|----------------------16--------|

こんな風に書いてあるんだけど、

1 |---------------|-----------------------------|
2 |-15--15-14--14-|-12--14-15--14-12------12-14-|
3 |---------------|-------------------15--------|
4 |---------------|-----------------------------|

---------------|-------------------------14-12--|
-15--15-14--14-|-12--14-15--14------------------|
---------------|---------------16--15-11--------|
---------------|--------------------------------|

俺はこっちの方が楽だと思う。
譜面通りにやると、弦の移動が多くて弾きづらかったので、俺は下の譜面に置き換えて弾いてる。まあおんなじ音が出てるからこの弾き方でも問題ないはずだけど。
俺が下手っぴだから譜面通りに弾けないってだけなんだけどね!

『VAMPIRE』のバンドスコア早く出ないかなー。『termination』のバンスコは出てるんだし、『VAMPIRE』のもそのうち出ると踏んでいるんだが。
『Living Dying Message』のギターが弾いてみたい。

『The World e.p.』のバンスコ高すぎだろ……常識的に考えて……。

コメント

コメントの投稿


管理者にだけ表示を許可する

トラックバック

http://yumemani.blog59.fc2.com/tb.php/515-a74a1192
この記事にトラックバックする(FC2ブログユーザー)

BACK  | HOME |  NEXT

最近の記事

カレンダー

05 | 2017/06 | 07
- - - - 1 2 3
4 5 6 7 8 9 10
11 12 13 14 15 16 17
18 19 20 21 22 23 24
25 26 27 28 29 30 -

カテゴリー

リンク

相互リンク
ぬるまゆらいふ
Angelia
罪と罰 Under World
び。
まるまるサイト
二次元世界研究所
360度の方針転換
Ryou's Diary
とりにくのたたき
ツインテールの吸血鬼はお好きですか?
ねこにぱふぇ

片思い
CLUB-FC
桶屋が儲かる
せいしんりょく
もるだうチャイニ~ズ
2000年問題児
nmnmdr blog.

音楽関係
あさきオフィシャルサイト
ねこちゃや
あさきアルバム制作プロジェクト
Sound Horizon
Sound Horizon(レーベル側)
9mm Parabellum Bullet
凛として時雨

最新コメント

最近のトラックバック

ブログ内検索

プロフィール

アズ

Author:アズ
住処:川崎
好きなニーソ:黒
詳しく
@az_ldm

Twitter

月別アーカイブ

RSSフィード

リンク

このブログをリンクに追加する

ブロとも申請フォーム

この人とブロともになる

カウンター

上記広告は1ヶ月以上更新のないブログに表示されています。新しい記事を書くことで広告を消せます。